Home :: Poll :: Pix :: Flix

Full Action Hose

 

At long last, here is the scoop on the real-deal, hard rockin, ax melting, crowd pleasing favorite. Tab and lyrics courtesy of the guitar player. He chooses to remain anonymous.

 

"Just Call Him Dude"


Words and music by the artist formerly known as "the guitarist"
As performed by "Full Action Hose"



Legend: ^=Palm mute
s/=slide up
s\=slide down
p =pull off
h =hammer on

 

 

Intro/Chorus
D C G A
e---------------------------------------------|
B---------------------------------------------|
G--7--5---------------------------------------| Play 3X
D--7--5--5--7---------------------------------|
A--5--3--5--7---------------------------------|
E--------3--5-5-5-5-5-5-5-5-5-5-5-5-5-5-5-5-5-|
^ ^ ^ ^ ^ ^ ^ ^ ^ ^ ^ ^ ^ ^ ^ ^

 

Verse
A A B B A A B
e---------------------------------------------------|
B---------------------------------------------------|
G---------------------------------------------------|
D---------------------------------7--9--9--7--7--9--| Play 2X (Rest after2X)
A---------------------------------7--9--9--7--7--9--|
E-5-5-5-5-5-5-5-5-5-5-5-5-5-5-5-5-5--7--7--5--5--7--|
^ ^ ^ ^ ^ ^ ^ ^ ^ ^ ^ ^ ^ ^ ^ ^ s/ s\ s/

Intro/Chorus 3X
Verse
A
Walkin' down the street in downtown Madison
A B B A A B
Watchin' the cows run
A
Had to stop when I heard this sound
A B B A A B
Soundin' like so much fun
Chorus (Play 3X)
D C G A
Just call him dude
Verse (same chords as before)
Saw this long haired guy playin' his guitar
Playin' it really fine
He was playin' so great,playin' so cool
He was only 5 foot nine
Chorus
Verse
His fingertips were flyin',makin'a sound
That would raise the dead
I got his attention,asked him his name
He looked at me and said
Chorus
D C G A
Just call me dude
D C G A
Just call him dude
D C G
Just call him (band tacet)
(Spoken...actually yelled!)
PLAY IT DUDE!!
Outro riff
A C A C A C A D
e--------------------------------------------------|
B------------------------------------------3-------|
G-2--2-2-5-p-2-2--2-2-5-p-2-2--2-2-5-P-2-2-2-------|Bass and drum enter 2X
D-2--2-2-5-p-2-2--2-2-5-p-2-2--2-2-5-P-2-2-O-------|
A-O--O-O-------O--O-O-------O--O-O-------O---------|
E--------------------------------------------------|
Repeat outro riff until end(when that is,is up to you).finish
with,a holding of the "D" chord(put in a small drum fill),and
play intro chords D,C,G,A.Maybe later I will tab out the solo,
but until then,just play "A" pentonic minor scales(blues).
Play real loud,real fast and if you have a whammy bar use it a lot!
Remember if you don't break a string, you didn't play it right!